Tokio Hotel Fan Kıbrıs

Tokio Hotel Kıbrıs
 
AnasayfaAnasayfa  PortalPortal  TakvimTakvim  SSSSSS  AramaArama  Kayıt OlKayıt Ol  Üye ListesiÜye Listesi  Giriş yapGiriş yap  

Paylaş | 
 

 --Moonson--

Aşağa gitmek 
YazarMesaj
bill-kolikk
Mod.
Mod.
avatar

Mesaj Sayısı : 161
Kayıt tarihi : 27/03/08
Yaş : 25
Nerden : Kocaelİ

MesajKonu: --Moonson--   Paz Nis. 27, 2008 9:57 am

E ---------------------------------------------------
B ---------------------------------------------------
G ---------------------------------------------------X2 sonra vokal girer ve X6 sonra nakarat
D ---6-6-6-7-7-7-6-------2-2-2-3-3-3-2-------------
A ---7-7-7-7-7-7-7-------3-3-3-3-3-3-3-------------
E ---7-7-7-7-7-7-7-------3-3-3-3-3-3-3------------- ama
G
My room is cold it’s making me insane derken insanec de G basarız

ve
A
I see the dark clouds coming up again burada da A devam eder şarkıyı iyice dinlerseniz tam tutuyor

A C
running through the monsoon
D
beyond the world
Em
to the end of time
Bm
where the rain wont hurt
C
fighting the storm
D
into the blue
Bm Em
and when i loose myself i think of you
C D
together we’ll be running somewhere new



through the monsoon
just me and you bu kısımda ilk baştakini yapacağız

yani

E -----------------------------------------------------------------------
B -----------------------------------------------------------------------
G ----------------------------------------------------------------------- X2
D ---6-6-6-7-7-7-6-------2-2-2-3-3-3-2---------------------------------
A ---7-7-7-7-7-7-7-------3-3-3-3-3-3-3---------------------------------
E ---7-7-7-7-7-7-7-------3-3-3-3-3-3-3---------------------------------


sonra

a half moon fadeing from my side

i see your vision in its light
G bu kısımdada X6 kez tukarıdaki yani ilk baştaki yapılır
and now its gone and left me so alone

i know i have to find you now

i hear your name i don’t know how
A
why can’t we make this darkness feel like home

sonra nakarat:

A C
running through the monsoon
D
beyond the world
Em
to the end of time
Bm
where the rain wont hurt
C
fighting the storm
D
into the blue
Bm Em
and when i loose myself i think of you
C D
together we’ll be running somewhere new
Em Bm
and nothing can hold me back from you
C D
through the monsoon ...........

aşağıdaki sözlerde bu tab basılır

E --------------------------------------------
B --------------------------------------------
G -------------------------------------------- X6
D -7-7-7-6-6-6----3-3-3-2-2-2---------------
A -7-7-7-7-7-7----3-3-3-3-3-3---------------
E -7-7-7-7-7-7----3-3-3-3-3-3---------------




Hey! ............
Hey!!! ..........


I’m fighting all its power
coming in my way
let it send me straight to you
i’ll be running night and day

sonra

bu tabla aşağıdaki sözler yapılır

E --------------------------------
B --------------------------------
G --------------------------------
D --6-7-6-2---------------------- X3 kez 4. de sadece 6
A --7-7-7-3---------------------- 7 sonra nakarata girilir dist. tonla
E --7-7-7-3---------------------- 7



i’ll be with you soon
just me and you
we’ll be there soon
so soon

sonra nakarat nakaratta ister yukarıdaki akorları ister şimdi vereceğim tabı kullanın

bitiş nakaratında

-------------------|--------------------------|--------------------------|
-------------------|--------------------------|--------------------------|
-------------------|--------------------------|--------------------------|
-------------------|--5--5--5--5--5--5--5--5-|--7--7--7--7--7--7--7--7-|
-------------------|--3--3--3--3--3--3--3--3-|--5--5--5--5--5--5--5--5-|
-------------------|--3--3--3--3--3--3--3--3-|--5--5--5--5--5--5--5--5-|


> > >
E E E E E E E E E E E E E E E E
--------------------------|--------------------------|
--------------------------|--------------------------|
--------------------------|--------------------------|
--9--9--9--9--9--9--9--9--|--9--9--9--9--9--9--9--9--|
--7--7--7--7--7--7--7--7--|--9--9--9--9--9--9--9--9--|
--7--7--7--7--7--7--7--7--|--7--7--7--7--7--7--7--7--|


> > > > > >
E E E E E E E E E E E E E E E E
--------------------------|--------------------------|
--------------------------|--------------------------|
--5--5--5--5--5--5--5--5--|--7--7--7--7--7--7--7--7--|
--5--5--5--5--5--5--5--5--|--7--7--7--7--7--7--7--7--|
--3--3--3--3--3--3--3--3--|--5--5--5--5--5--5--5--5--|
--3--3--3--3--3--3--3--3--|--5--5--5--5--5--5--5--5--|


> > > > > >
E E E E E E E E E E E E E E E E
--------------------------|--------------------------|
--------------------------|--------------------------|
--------------------------|--9--9--9--9--9--9--9--9--|
--9--9--9--9--9--9--9--9--|--9--9--9--9--9--9--9--9--|
--9--9--9--9--9--9--9--9--|--7--7--7--7--7--7--7--7--|
--7--7--7--7--7--7--7--7--|--7--7--7--7--7--7--7--7--|


> > > > > >
E E E E E E E E E E E E E E E E
--------------------------|--------------------------|
--------------------------|--------------------------|
--5--5--5--5--5--5--5--5--|--7--7--7--7--7--7--7--7--|
--5--5--5--5--5--5--5--5--|--7--7--7--7--7--7--7--7--|
--3--3--3--3--3--3--3--3--|--5--5--5--5--5--5--5--5--|
--3--3--3--3--3--3--3--3--|--5--5--5--5--5--5--5--5--|


> > > > > >
E E E E E E E E E E E E E E E E
--------------------------|--------------------------|
--------------------------|--------------------------|
--9--9--9--9--9--9--9--9--|--------------------------|
--9--9--9--9--9--9--9--9--|--9--9--9--9--9--9--9--9--|
--7--7--7--7--7--7--7--7--|--9--9--9--9--9--9--9--9--|
--7--7--7--7--7--7--7--7--|--7--7--7--7--7--7--7--7--|


E E E E E E E E E E E E E E E E
--------------------------|--------------------------|
--------------------------|--------------------------|
--5--5--5--5--5--5--5--5--|--7--7--7--7--7--7--7--7--|
--5--5--5--5--5--5--5--5--|--7--7--7--7--7--7--7--7--|
--3--3--3--3--3--3--3--3--|--5--5--5--5--5--5--5--5--|
--3--3--3--3--3--3--3--3--|--5--5--5--5--5--5--5--5--|


running through the monsoon
beyond the world
to the end of time
where the rain wont hurt
fighting the storm
into the blue
and when i loose myself i think of you
together we’ll be running somewhere new
and nothing can hold me back from you
through the monsoon

sonra en baştaki tabları distortion tondan çalarız aşağıdaki sözlerle


through the monsoon
Just me and you
through the monsoon
Just me and youuuuu........

ve bitişte ise aşağıdaki tab

|--------------------0-----|
|--------------------0-----|
|--0--0-----0-----x--0-----|
|--2--2-----2-----x--2--L--|
|--3--3-----3-----x--3--L--| bu arada L: notası elinizi çekin ve uzasın
|--------------------------|
Sayfa başına dön Aşağa gitmek
Kullanıcı profilini gör
bill_th_gülben
Admin
Admin
avatar

Mesaj Sayısı : 923
Kayıt tarihi : 17/02/08
Nerden : bill in uçağı jumbienin içinden xD

MesajKonu: Geri: --Moonson--   Paz Nis. 27, 2008 1:31 pm

Paylaşım için sağol
Sayfa başına dön Aşağa gitmek
Kullanıcı profilini gör http://tokiohotelfancyprus.4umer.com
bill-kolikk
Mod.
Mod.
avatar

Mesaj Sayısı : 161
Kayıt tarihi : 27/03/08
Yaş : 25
Nerden : Kocaelİ

MesajKonu: Geri: --Moonson--   Paz Nis. 27, 2008 3:11 pm

:) birşey değil canım..
Sayfa başına dön Aşağa gitmek
Kullanıcı profilini gör
 
--Moonson--
Sayfa başına dön 
1 sayfadaki 1 sayfası

Bu forumun müsaadesi var:Bu forumdaki mesajlara cevap veremezsiniz
Tokio Hotel Fan Kıbrıs :: Tokio Hotel Fan Cyprus :: TH Notalar :: Tab-
Buraya geçin: