Tokio Hotel Fan Kıbrıs

Tokio Hotel Kıbrıs
 
AnasayfaAnasayfa  PortalPortal  TakvimTakvim  SSSSSS  AramaArama  Kayıt OlKayıt Ol  Üye ListesiÜye Listesi  Giriş yapGiriş yap  

Paylaş | 
 

 ---Reden---

Aşağa gitmek 
YazarMesaj
bill-kolikk
Mod.
Mod.
avatar

Mesaj Sayısı : 161
Kayıt tarihi : 27/03/08
Yaş : 25
Nerden : Kocaelİ

MesajKonu: ---Reden---   Paz Nis. 27, 2008 9:59 am

Intro
E |-----------------------|
H |-----------------------|
G |------------555--------|
D |--2222------555-5-555--| 2x
A |--0000-2222-333-5-555--|
E |-------0000-----3-333--|


giriş
E |-----------------------|
H |-----------------------|
G |------------555--------|
D |--2222------555-5-555--| 9x
A |--0000-2222-333-5-555--|
E |-------0000-----3-333--|

E |------------------|
H |------------------|
G |------------------|
D |-3333333333333333-|
A |-3333333333333333-|
E |-1111111111111111-|


nakarat
E |------------------------|
H |------------------------|
G |-5555-------------------|
D |-5555--------777-5-555--| 5x
A |-3333---1111-777-5-555--|
E |--------0000-555-3-333--|
Sayfa başına dön Aşağa gitmek
Kullanıcı profilini gör
bill_th_gülben
Admin
Admin
avatar

Mesaj Sayısı : 923
Kayıt tarihi : 17/02/08
Nerden : bill in uçağı jumbienin içinden xD

MesajKonu: Geri: ---Reden---   Paz Nis. 27, 2008 1:37 pm

Paylaşım için sağol canım
Sayfa başına dön Aşağa gitmek
Kullanıcı profilini gör http://tokiohotelfancyprus.4umer.com
bill-kolikk
Mod.
Mod.
avatar

Mesaj Sayısı : 161
Kayıt tarihi : 27/03/08
Yaş : 25
Nerden : Kocaelİ

MesajKonu: Geri: ---Reden---   Paz Nis. 27, 2008 3:11 pm

:) birşey değil canım..
Sayfa başına dön Aşağa gitmek
Kullanıcı profilini gör
 
---Reden---
Sayfa başına dön 
1 sayfadaki 1 sayfası

Bu forumun müsaadesi var:Bu forumdaki mesajlara cevap veremezsiniz
Tokio Hotel Fan Kıbrıs :: Tokio Hotel Fan Cyprus :: TH Notalar :: Tab-
Buraya geçin: